www.elewow.es.tl asi como todas las imágenes, videos y productos referentes/propios a dicha página contienen derechos de autor (Copyrigh) © de acuerdo con la ley vigente de 1996 renovada en 2011
 

AQUI LES DEJO UN PAR DE TABLATURAS DEL GRUPO METALLICA A PETICION DE UNA PERSONA:

 Ain't My Bitch


Intro
|----------|---------------------|---------------------------|
|----------|---------------------|---------------------------|
|----------|---------------------|---------------------------|
|----------|--------5------------|---------------------------|
|---5---7--|--------5------5--6--|--7--7--7---7---7----7--5--|
|---0---0--|----0---3------0--0--|--0--0--0---0---0----0--0--|

|------------------------|----------------------|---------------------|
|------------------------|----------------------|---------------------|
|---------~~~~~----------|----------------------|---------------------|
|--------5---------------|----------------------|--------5------------|
|--7--7--------7---7--5--|--7--7--7---7---5--7--|--------5------5--6--|
|--0--0--------0---0--0--|--0--0--0---0---0--0--|----0---3------0--0--|

|---------------------------|------------------------|----------------------|
|---------------------------|------------------------|----------------------|
|---------------------------|---------~~~~~----------|----------------------|
|---------------------------|--------5---------------|----------------------|
|--7--7--7---7---7----7--5--|--7--7--------7---7--5--|--7--7--7---7---5--7--|
|--0--0--0---0---0----0--0--|--0--0--------0---0--0--|--0--0--0---0---0--0--|

Rhy Fig 1
|---------------------|--------------------------|-------------------------|
|---------------------|--------------------------|-------------------------|
|---------------------|--------------------------|-------------------------|
|--------5------------|--------------------------|--------5~-~-------------|
|--------5------5--6--|--7--7--7-----7-----7--5--|--7--7-------7-----7--5--|
|----0---3------0--0--|--0--0--0--0--0--0--0--0--|--0--0-------0--0--0--0--|

end Rhy Fig 1
|--------------------------|---------------------|
|--------------------------|---------------------|
|--------------------------|---------------------|
|--------------------------|--------5------------|
|--7--7--7-----7-----5--7--|--------5------5--6--|
|--0--0--0--0--0--0--0--0--|--0--0--3------0--0--|

w/ Rhy Fig 1 (2 times)
|--------------------------|-------------------------|
|--------------------------|-------------------------|
|--------------------------|-------------------------|
|--------------------------|--------5~-~-------------|
|--7--7--7-----7-----7--5--|--7--7-------7-----7--5--|
|--0--0--0--0--0--0--0--0--|--0--0-------0--0--0--0--|

|--------------------------|---------------------|
|--------------------------|---------------------|
|--------------------------|---------------------|
|--------------------------|--------5------------|
|--7--7--7-----7-----5--7--|--------5------5--7--|
|--0--0--0--0--0--0--0--0--|--0--0--3------------|

|-------------------------------|--------------------------------|
|-------------------------------|--------------------------------|
|--------------1/4 Bend---------|--------------1/4 Bend----------|
|--5------7-------5-------------|--5------7-------5--------------|
|-----7-------7------7---5---7--|-----7-------7-------7---5---7--|
|-------------------------------|--------------------------------|

|-------------------------------|----------------------|
|-------------------------------|----------------------|
|--------------1/4 Bend---------|----------------------|
|--5------7-------5-------------|--5------5~-~-~-------|
|-----7-------7------7---5---7--|-----7----------5--7--|
|-------------------------------|----------------------|

|-------------------------------|----------------------------------|
|-------------------------------|---------------1/4 Bend-----------|
|--------------1/4 Bend---------|--12------14------12--------------|
|--5------7-------5-----12--14--|------14------14------14--12--14--|
|-----7-------7------7----------|----------------------------------|
|-------------------------------|----------------------------------|

|----------------------------------|---------------------|
|----------14---1/4 Bend-----------|----------12b14------|
|--12------14------12--------------|--12------12b13------|
|------14------14------14--12--14--|------14-------------|
|----------------------------------|---------------------|
|----------------------------------|---------------------|

Verse
e--------------------------------------------------|
B--------------------------------------------------|
G--------------------------------------------------|
D--------------------------------------------------|
A---5--6--7---7---7---7------7------7---5---7---7--|
E---0--0--0---0---0---0------0------0---0---0---0--|
Outta my way....

e--------------------------------------------------------------------------|
B--------------------------------------------------------------------------|
G--~~~~~-------------------------------------------------------------------|
D--5----------------------------------------------------------------5------|
A---------7------7---5----7----7----7------7------5----7------------5------|
E---------0------0---0----0----0----0------0------0----0--------0---3------|

e--------------------------------------------------|
B--------------------------------------------------|
G--------------------------------------------------|
D---5--6--7---7---7---7------7------7---5---7---7--|
A---0--0--0---0---0---0------0------0---0---0---0--|
E--------------------------------------------------|
Head strong....

e--------------------------------------------------------------------------|
B--~~~~~-------------------------------------------------------------------|
G--5-----------------------------------------------------------------------|
D---------7------7---5----7----7----7------7------5----7------------5------|
A---------0------0---0----0----0----0------0------0----0--------0---5------|
E-------------------------------------------------------------------3------|

e------------------------------------------------------------------|
B------------------------------------------------------------------|
G------------------------------------------------------------------|
D---2--------------------------------------------------------------|
A---2--------------------------------------------------------------|
E---0--------------------------------------------------------------|
You arrived....

e-------------------------------------------------------------|
B-------------------------------------------------------------|
G-------------------------------------------------------------|
D------------2--2--2--2--2--2--2--2--2--2--2--2--2--2--2--2---|
A------------2--2--2--2--2--2--2--2--2--2--2--2--2--2--2--2---|
E------------0--0--0--0--0--0--0--0--0--0--0--0--0--0--0--0---|
goodbye...

Chorus
e-----------------------------------------------------------------------|
B-----------------------------------------------------------------------|
G----4------------------2-----------------------------------------------|
D----4------------------2--------------------5--------------------------|
A----2------------------0--------------------5---------------5---4---3--|
E--------------------------------------------3---------------3---2---1--|
Draggin me...

e---------------------------------------------------------------------------|
B---------------------------------------------------------------------------|
G---------------------------------------------------------------------------|
D---------------------------------------------------------------------------|
A---------------------------------------------------------------------------|
E-0--0--0--0--3p0--0--0--0--0--3p0--0--0--3p0--0--0--0--0--3p0--0--0--3p0---|
So useless....

e--------------0------------------0--------------------0--------------------|
B----------0------------------0--------------------0------------------------|
G----4------------------2---------------------------------------------------|
D----4------------------2--------------------5------------------------------|
A----2------------------0--------------------5---------------5---4---3---2--|
E--------------------------------------------3---------------3---2---1---0--|
It ain't my fall....

Before solo (variation of above)
e-------------------------------------|
B-------------------------------------|
G-----------------Full--1/4Bend-------|
D----------5---7---7------5-----------|
A--5---7----------------------7-------|
E-------------------------------------|


Guitar Solo
w/ slide
|--------------|---------------------------|-----------------------------|
|--------------|------------/sl-----------|------------------/sl----11-|
|--4/-----sl---|--/11------11---9------11--|--(11)-~--(11)--9---11------|
|--4/-----sl---|--/11--------------11------|-----------------------------|
|--------------|---------------------------|-----------------------------|
|--------------|---------------------------|-----------------------------|

|-----------------------------|-----------------|---------14--------------14------
|-(11)--(11)----/11--12--13--|-/14----------14-|-12--14------14--12--14------14-
|-(11)--(11)-----------------|-----------------|---------------------------------
|-----------------------------|-----------------|---------------------------------
|-----------------------------|-----------------|---------------------------------
|-----------------------------|-----------------|---------------------------------

|----------14--------------14----|----------14--------------14----|
|-12--14-----14--12--14------14-|-12--14------14--12--14---------|
|--------------------------------|--------------------------------|
|--------------------------------|--------------------------------|
|--------------------------------|--------------------------------|
|--------------------------------|--------------------------------|

|--14/------------/17-~----(17)--|-------16-~--------16--------|
|--14/----------------------------|--/16-------16-~-~-----16-~--|
|---------------------------------|-----------------------------|
|---------------------------------|-----------------------------|
|---------------------------------|-----------------------------|
|---------------------------------|-----------------------------|

|--------16--------16------|-/19-------------------|-------------------|
|--16-~-----16-~------16--|------19--------/12-~-|-(12)-~-----(12)--|
|--------------------------|------------/9--------|-------------------|
|--------------------------|-----------------------|-------------------|
|--------------------------|-----------------------|-------------------|
|--------------------------|-----------------------|-------------------|

|------------------|-----------11--14-~-~---(14)--|
|-/7---5----9--7---|---12--11----------------------|
|------------------|-------------------------------|
|------------------|-------------------------------|
|------------------|-------------------------------|
|------------------|-------------------------------|

|------------------|-----------11--14----14--/19--|
|--/7---5---9--7---|--12--11------------------------|
|------------------|--------------------------------|
|------------------|--------------------------------|
|------------------|--------------------------------|
|------------------|--------------------------------|

let ring
|--/19--(19)-~-~--|--(19)-~-----(19)--|-/19----/12----|----------------------------|
|-----------------|--------------------|-----------------|-/12----7/--sl--/9---------|
|-----------------|--------------------|-----------------|---------7/--sl--/9---------|
|-----------------|--------------------|-----------------|----------------------------|
|-----------------|--------------------|-----------------|----------------------------|
|-----------------|--------------------|-----------------|----------------------------|

One

e|---------------------------------------------------------------------------|
b|---------------------------------------------------------------------------|
g|------------------------------------------------------------------------0--|
D|----4-----0--(0)------4-----0--(0)-------4-----0--(0)------4-----0--(0)----|
A|-2-----2------------------------------2-----2------------------------------|
E|-------------------3-----3------------------------------3-----3------------|


e|--------------------------------------------------------------------|
b|--------------------------------------------------------------------|
g|--------------------------------------------------------------------|
D|----4------0--(0)------4-----0--(0)------4-----0--(0)---------------|
A|-2-----2------------0-----0--------------------------------2-----2--|
E|--------------------------------------3-----3-----------0-----2-----|

intro solo
e|-------------------------------------------|
b|-----------------3p2-----3p2-----3-3p2-----|
g|------2-4b6r4~-------4-------2---------4~--|
D|-2h4---------------------------------------|
A|-------------------------------------------|
E|-------------------------------------------|


e|--------------------------------------------------------------------|
b|----------------------------------------2h3-2~------2-3p2-----------|
g|-11p97--9p76--7p64--6p42--/4~~---/4----------/4-------2-/4~~----|
D|--------------------------------------------------------------------|
A|--------------------------------------------------------------------|
E|--------------------------------------------------------------------|

/rake
e|-----14-19--17p15----15------|
b|---15-------------19----15~--|
g|-16--------------------------|
D|-----------------------------|
A|-----------------------------|
E|-----------------------------|


e|-----------------------------------|
b|-----------------------------------|
g|-7p6-7--9p7-9--11p9-11--/12-12-11--|
D|-----------------------------------|
A|-----------------------------------|
E|-----------------------------------|

end solo
e|-----------------------------------------------------------------------|
b|------------------------12--------12-14-15-/17-15-14-12-14-14--15-12~--|
g|-----11-12-14------11-12--------11-------------------------------------|
D|---12------------12-----------12---------------------------------------|
A|-14------------14-----------14-----------------------------------------|
E|-----------------------------------------------------------------------|


e|-------------------------|
b|-------------------------|
g|-------------------------|
D|-------------------------|
A|----2-----2-----2-2h4-2--|
E|-0-----2-----0-----------|

x2
e|----------------------------------------|
b|----------------------------------------|
g|----------------------------------------|
D|----4-----0-0-4--0------4-----0--4-4-0--|
A|-2-----2--------------------------------|
E|---------------------3-----3------------|


e|-----------------------------------------------------------|
b|-----------------------------------------------------------|
g|------------------------------------0----------------------|
D|----4-----0-0-4--0-----4-----0--4-4--------4-----0-0-4--0--|
A|-2-----2------------0-----0--------------------------------|
E|----------------------------------------3-----3------------|


e|-----------------------------------|
b|-----------------------------------|
g|-----------------------------------|
D|----2h4~-2---------------0---------|
A|---------------4------5---------7--|
E|-0----------2------3--------3-5----|


e|------------------------------------------|
b|-------------------------0h3p0---0h3p0----|
g|-------0-7-----0------4--------4-------0--|
D|----7-------7------5----------------------|
A|-5----------------------------------------|
E|------------------------------------------|


e|-------------------------0----|
b|-----------------------0---0--|
g|------0-10----0------0--------|
D|---10------10------9----------|
A|-8---------------7------------|
E|------------------------------|


e|------------------------------------------|
b|-------------------------0h3p0---0h3p0----|
g|-------0-7-----0------4--------4-------0--|
D|----7-------7------5----------------------|
A|-5----------------------------------------|
E|------------------------------------------|


e|------------------------------|
b|-----------------------0------|
g|------0-10----0------0--------|
D|---10------10------9----------|
A|-8---------------7--------/3--|
E|------------------------------|



verse
e|---------------------------------------------------------------------------|
b|---------------------------------------------------------------------------|
g|---------------------------------------------------------------------------|
D|----4-----0-0-4--0-----4-----0--4-4-0-----4-----0-0-4--0-----4-----0-------|
A|-2-----2-------------------------------2-----2-------------------------/5--|
E|--------------------3-----3-------------------------------3-----3------/5--|

x2
e|------------------------------------------------------------------------|
b|------------------------------------------------------------------------|
g|------------------------------------0-----------------------------------|
D|----4-----0-0-4--0-----4-----0--4-4--------4-----0-0-4--0---------------|
A|-2-----2------------0-----0------------------------------------2-----2--|
E|----------------------------------------3-----3-------------0-----2-----|

chorus
e|--------------------------------------|
b|--------------------------------------|
g|--------------------------------------|
D|-----2-4-2-------4-2--4-6-4-2---------|
A|-5---0-2-0-5--4--2-0--2-4-2-0--3~-4~--|
E|-3---------3--2-----------------------|


e|------------------------------------------|
b|-------------------------0h3p0---0h3p0----|
g|-------0-7-----0------4--------4-------0--|
D|----7-------7------5----------------------|
A|-5----------------------------------------|
E|------------------------------------------|


e|-------------------------0----|
b|-----------------------0---0--|
g|------0-10----0------0--------|
D|---10------10------9----------|
A|-8---------------7------------|
E|------------------------------|


e|------------------------------------------|
b|-------------------------0h3p0---0h3p0----|
g|-------0-7-----0------4--------4-------0--|
D|----7-------7------5----------------------|
A|-5----------------------------------------|
E|------------------------------------------|


e|------------------------------|
b|-----------------------0------|
g|------0-10----0------0--------|
D|---10------10------9----------|
A|-8---------------7--------/3--|
E|------------------------------|


verse 2
e|---------------------------------------------------------------------------|
b|---------------------------------------------------------------------------|
g|---------------------------------------------------------------------------|
D|----4-----0-0-4--0-----4-----0--4-4-0-----4-----0-0-4--0-----4-----0-------|
A|-2-----2-------------------------------2-----2-------------------------/5--|
E|--------------------3-----3-------------------------------3-----3------/5--|

x2
e|------------------------------------------------------------------------|
b|------------------------------------------------------------------------|
g|------------------------------------0-----------------------------------|
D|----4-----0-0-4--0-----4-----0--4-4--------4-----0-0-4--0---------------|
A|-2-----2------------0-----0------------------------------------2-----2--|
E|----------------------------------------3-----3-------------0-----2-----|

chorus
e|--------------------------------------|
b|--------------------------------------|
g|--------------------------------------|
D|-----2-4-2-------4-2--4-6-4-2---------|
A|-5---0-2-0-5--4--2-0--2-4-2-0--3~-4~--|
E|-3---------3--2-----------------------|


e|------------------------------------------|
b|-------------------------0h3p0---0h3p0----|
g|-------0-7-----0------4--------4-------0--|
D|----7-------7------5----------------------|
A|-5----------------------------------------|
E|------------------------------------------|


e|-----------------------------------|
b|-----------------------0-10p7---7--|
g|------0-10----0------0--------7----|
D|---10------10------9---------------|
A|-8---------------7-----------------|
E|-----------------------------------|

solo
e|---------------------------------------------------|
b|-10~--10-8-7---7--h8p7-----/15-13-12----12-13------|
g|-------------9---------7~~-----------14-------12~--|
D|---------------------------------------------------|
A|---------------------------------------------------|
E|---------------------------------------------------|


e|-17p14----14-17--17-15-14-15p14--------14-15-17-19p17p15-19p17p15-19p17p15--|
b|-------15-----------------------15--15--------------------------------------|
g|----------------------------------------------------------------------------|
D|----------------------------------------------------------------------------|
A|----------------------------------------------------------------------------|
E|----------------------------------------------------------------------------|


e|----15-------------|
b|-19----17-19-15~~--|
g|-------------------|
D|-------------------|
A|-------------------|
E|-------------------|


e|-----------------------------|
b|-/8--8-8-7--/13-13-13-13-12--|
g|-/7--7-7-7--/12-12-12-12-12--|
D|-----------------------------|
A|-----------------------------|
E|-----------------------------|


e|-t20p17p13-t20p17p13-t20p17p13-t20p17p13-t20p17p13-t20p17p13--|
b|--------------------------------------------------------------|
g|--------------------------------------------------------------|
D|--------------------------------------------------------------|
A|--------------------------------------------------------------|
E|--------------------------------------------------------------|

* * end solo
e|-(t20)p12h13p12~--(t20)p12h13p12~~--|
b|------------------------------------|
g|------------------------------------|
D|------------------------------------|
A|------------------------------------|
E|------------------------------------|

* = silent tap


chorus x2
e|-------------------------------------|
b|-------------------------------------|
g|-------------------------------------|
D|-----2-4-2-------4-2--4-6-4-2--4--6--|
A|-5---0-2-0-5--4--2-0--2-4-2-0--2--4--|
E|-3---------3--2----------------------|
now the world is gone.....


e|--------------------|
b|--------------------|
g|--------------------|
D|-----2-4-2-------4--|
A|-5---0-2-0-5--4--2--|
E|-3---------3--2-----|


e|----------------------------------------|
b|----------------------------------------|
g|-9----7--9/12--12--------4----4-4--5----|
D|----------------------------------------|
A|-7----5--7/10--10--------2----2-2--3----|
E|----------------------------------------|


e|---------------------------------------|
b|---------------------------------------|
g|-9----7--9/12--12--------8---8-8--9----|
D|---------------------------------------|
A|-7----5--7/10--10--------6---6-6--7----|
E|---------------------------------------|


e|----------------------------------------|
b|----------------------------------------|
g|-9----7--9/12--12--------4----4-4--5----|
D|----------------------------------------|
A|-7----5--7/10--10--------2----2-2--3----|
E|----------------------------------------|


e|------------------------------------------|
b|------------------------------------------|
g|-9----7--9/12--12-------11---11-11--12----|
D|------------------------------------------|
A|-7----5--7/10--10--------9----9--9--10----|
E|------------------------------------------|



e|-------------------------|
b|-------------------------|
g|-------------------------|
D|-5-5-5-7-5---4-4-4-5-4--|
A|-7-7-7-7-7-5-5-5-5-5-5--|
E|-------------------------|


e|-------------------------|
b|-------------------------|
g|-4------4----5------5----|
D|-4------4----5------5----|
A|-2------2----3------3----|
E|-----2----2------3----3--|


e|-------------------------|
b|-------------------------|
g|-------------------------|
D|-5-5-5-7-5---4-4-4-5-4--|
A|-7-7-7-7-7-5-5-5-5-5-5--|
E|-------------------------|


e|------------------------------|
b|------------------------------|
g|-4------4----5------5----5----|
D|-4------4----5--5-5-5----5----|
A|-2------2----3--3-3-3----3----|
E|-----2----2------------3---3--|


e|----------|
b|----------|
g|----------|
D|-5--------|
A|-3--------|
E|-0--------|


e|-------------------------------------------------------------|
b|-------------------------------------------------------------|
g|-------------------------------------------------------------|
D|-------------2--------------2--------------2--------------2--|
A|-------------2--------------2--------------2--------------2--|
E|-0-0-0-0-0-0----0-0-0-0-0-0----0-0-0-0-0-0----0-0-0-0-0-0----|


e|---------------------------------------------------------------|
b|---------------------------------------------------------------|
g|---------------------------------------------------------------|
D|-------------2--------------2--------------2--------------2-3--|
A|-------------2--------------2--------------2--------------2-3--|
E|-0-0-0-0-0-0----0-0-0-0-0-0----0-0-0-0-0-0----0-0-0-0-0-0------|

x4
e|---------------------------------|
b|---------------------------------|
g|---------------------------------|
D|-------------2--------------2-3--|
A|-------------2--------------2-3--|
E|-0-0-0-0-0-0----0-0-0-0-0-0------|


e|---------------------------------------------------------------|
b|---------------------------------------------------------------|
g|---------------------------------------------------------------|
D|-------------2--------------2--------------2--------------2-3--|
A|-------------2--------------2--------------2--------------2-3--|
E|-0-0-0-0-0-0----0-0-0-0-0-0----0-0-0-0-0-0----0-0-0-0-0-0------|


e|---------------------------------------------------------------|
b|---------------------------------------------------------------|
g|---------------------------------------------------------------|
D|-------------2--------------2--------------2--------------2-3--|
A|-------------2--------------2--------------2--------------2-3--|
E|-0-0-0-0-0-0----0-0-0-0-0-0----0-0-0-0-0-0----0-0-0-0-0-0------|


e|-------------------------------------------------------------------|
b|-------------------------------------------------------------------|
g|-------------------------------------------------------------------|
D|-------------------------------------------------------------------|
A|-------------7~--------------7/8--------------5~--------------5/8--|
E|-0-0-0-0-0-0-----0-0-0-0-0-0------0-0-0-0-0-0-----0-0-0-0-0-0------|


e|-------------------------------------------------------------------|
b|-------------------------------------------------------------------|
g|-------------------------------------------------------------------|
D|-------------------------------------------------------------------|
A|-------------7~--------------7/8--------------5~--------------52--|
E|-0-0-0-0-0-0-----0-0-0-0-0-0------0-0-0-0-0-0-----0-0-0-0-0-0------|


e|---------------------------------------------------------------|
b|---------------------------------------------------------------|
g|---------------------------------------------------------------|
D|-------------2--------------2--------------2--------------2-3--|
A|-------------2--------------2--------------2--------------2-3--|
E|-0-0-0-0-0-0----0-0-0-0-0-0----0-0-0-0-0-0----0-0-0-0-0-0------|


e|---------------------------------------------------------------|
b|---------------------------------------------------------------|
g|---------------------------------------------------------------|
D|-------------2--------------2--------------2--------------2-3--|
A|-------------2--------------2--------------2--------------2-3--|
E|-0-0-0-0-0-0----0-0-0-0-0-0----0-0-0-0-0-0----0-0-0-0-0-0------|

x4
e|--------------------------------------|
b|--------------------------------------|
g|--------------------------------------|
D|-------------2-------------2-------3--|
A|-------------2-------------2-------3--|
E|-0-0-0-0-0-0---0-0-0-0-0-0---0-0-0----|


e|----------------------------------------|
b|----------------------------------------|
g|----------------------------------------|
D|----------------------------------------|
A|----------------------------------------|
E|-0-0-0-0-0-0-0--0-0-0-0-0-0-0--0-0-0-0--|


e|--------------------------------------------|
b|--------------------------------------------|
g|--------------------------------------------|
D|--------------------------------------------|
A|--------------------------------------------|
E|-0-0-0-0-0-0-0--0-0-0-0-0-0-0--0-0-0-0-0-0--|


x4
e|--------------------------------------|
b|--------------------------------------|
g|--------------------------------------|
D|-------------2-------------2-------3--|
A|-------------2-------------2-------3--|
E|-0-0-0-0-0-0---0-0-0-0-0-0---0-0-0----|


e|----------------------------------------|
b|----------------------------------------|
g|----------------------------------------|
D|----------------------------------------|
A|----------------------------------------|
E|-0-0-0-0-0-0-0--0-0-0-0-0-0-0--0-0-0-0--|


e|--------------------------------------------|
b|--------------------------------------------|
g|--------------------------------------------|
D|--------------------------------------------|
A|--------------------------------------------|
E|-0-0-0-0-0-0-0--0-0-0-0-0-0-0--0-0-0-0-0-0--|

main solo
e|-t19p15p12-t19p15p12-t19p15p12-t19p15p12-t19p15p12-t19p15p12-t19p15p12-
b|-----------------------------------------------------------------------
g|-----------------------------------------------------------------------
D|-----------------------------------------------------------------------
A|-----------------------------------------------------------------------
E|-----------------------------------------------------------------------


e-t19p15p12--|
b------------|
g------------|
D------------|
A------------|
E------------|


e|-t20p15p12-t20p15p12-t20p15p12-t20p15p12-t20p15p12-t20p15p12-t20p15p12-
b|-----------------------------------------------------------------------
g|-----------------------------------------------------------------------
D|-----------------------------------------------------------------------
A|-----------------------------------------------------------------------
E|-----------------------------------------------------------------------


e-t20p15p12--|
b------------|
g------------|
D------------|
A------------|
E------------|


e|------------------------------------------------------------------------
b|-t19p15p12-t19p15p12-t19p15p12-t19p15p12-t19p15p12-t19p15p12-t19p15p12--
g|------------------------------------------------------------------------
D|------------------------------------------------------------------------
A|------------------------------------------------------------------------
E|------------------------------------------------------------------------


e------------|
b-t19p15p12--|
g------------|
D------------|
A------------|
E------------|


e|------------------------------------------------------------------------
b|-t20p15p12-t20p15p12-t20p15p12-t20p15p12-t20p15p12-t20p15p12-t20p15p12--
g|------------------------------------------------------------------------
D|------------------------------------------------------------------------
A|------------------------------------------------------------------------
E|------------------------------------------------------------------------


e------------|
b-t20p15p12--|
g------------|
D------------|
A------------|
E------------|


e|------------------------------------------------------------------------
b|-t17p13p10-t17p13p10-t17p13p10-t17p13p10-t17p13p10-t17p13p10-t17p13p10--
g|------------------------------------------------------------------------
D|------------------------------------------------------------------------
A|------------------------------------------------------------------------
E|------------------------------------------------------------------------


e------------|
b-t17p13p10--|
g------------|
D------------|
A------------|
E------------|


e|------------------------------------------------------------------------
b|-t18p13p10-t18p13p10-t18p13p10-t18p13p10-t18p13p10-t18p13p10-t18p13p10--
g|------------------------------------------------------------------------
D|------------------------------------------------------------------------
A|------------------------------------------------------------------------
E|------------------------------------------------------------------------


e------------|
b-t18p13p10--|
g------------|
D------------|
A------------|
E------------|


e|-----------------------------------------------------------------------------|
b|-t17p12h14-t17p12-t17p10-t17p12-t17p10-t17p8-t17p10-t17p8-t17p7-t17p8-t17p7--|
g|-----------------------------------------------------------------------------|
D|-----------------------------------------------------------------------------|
A|-----------------------------------------------------------------------------|
E|-----------------------------------------------------------------------------|


e|---------|
b|-t17p5~--|
g|---------|
D|---------|
A|---------|
E|---------|


e|-------------------------14-14-14-15-15-15-17-17-17----------17-17-17-17--|
b|-/12-12-12-12-12-12-12~-----------------------------15-15-15--------------|
g|--------------------------------------------------------------------------|
D|--------------------------------------------------------------------------|
A|--------------------------------------------------------------------------|
E|--------------------------------------------------------------------------|


e|-22b24~--22b24-22b24~~--|
b|------------------------|
g|------------------------|
D|------------------------|
A|------------------------|
E|------------------------|


e|-----15-17p15-------------15h17p15-------------15h17p15--------------|
b|-/17----------17-15-17h19----------17-15-17h19----------17-15-17h19--|
g|---------------------------------------------------------------------|
D|---------------------------------------------------------------------|
A|---------------------------------------------------------------------|
E|---------------------------------------------------------------------|


e|-15h17p15----------15-15h17p15-------------15h17p15-------15h17--|
b|----------17-17-19-------------17-15-17h19----------17p15--------|
g|-----------------------------------------------------------------|
D|-----------------------------------------------------------------|
A|-----------------------------------------------------------------|
E|-----------------------------------------------------------------|


e|-19p17p15----19p17p15----19p17p15----19p17p15-----|
b|----------15----------15----------15----------15--|
g|--------------------------------------------------|
D|--------------------------------------------------|
A|--------------------------------------------------|
E|--------------------------------------------------|


e|-19p17----19p17----19p17----19p17p15--|
b|-------15-------15-------15-----------|
g|--------------------------------------|
D|--------------------------------------|
A|--------------------------------------|
E|--------------------------------------|


e|-------15-------15-------15-------15--|
b|-18b20----18b20----18b20----18b20-----|
g|--------------------------------------|
D|--------------------------------------|
A|--------------------------------------|
E|--------------------------------------|


e|-18b19-15-------15-18b19-15-------15--|
b|----------18b20-------------18b20-----|
g|--------------------------------------|
D|--------------------------------------|
A|--------------------------------------|
E|--------------------------------------|


e|-19p17p15-17--17p15----15-----------------------------------------|
b|--------------------19-----19p17p15-17--17p1513-15--15p1312-13--|
g|------------------------------------------------------------------|
D|------------------------------------------------------------------|
A|------------------------------------------------------------------|
E|------------------------------------------------------------------|


e|-------------------------------------------------------------------------|
b|-13p12----12-------------------------------------------------------------|
g|-------14----14p12-14p12----12----12-14b16-14b16-14b16-14b16-(16)r14p12--|
D|-------------------------14----14----------------------------------------|
A|-------------------------------------------------------------------------|
E|-------------------------------------------------------------------------|


e|------------------------------------|
b|------------------------------------|
g|----12----12------------------------|
D|-14----14----14-13-12---------------|
A|----------------------14-13-12-10~--|
E|------------------------------------|


e|------------------------------------------|
b|--------15--------15--------15--------15--|
g|--------15--------15--------15--------15--|
D|-/17-17-----17-17-----17-17-----17-17-----|
A|------------------------------------------|
E|------------------------------------------|


e|-----------------------------------|
b|-17b18~~-17b18~~-(18)r17p15----15--|
g|-17b18~~-17b18~~-(18)r17p15----15--|
D|----------------------------17-----|
A|-----------------------------------|
E|-----------------------------------|


e|------------------------------------|
b|--------15--------15-----17-17-15~--|
g|--------15--------15--x--17-17-15~--|
D|-/17-17-----17-17-----x-------------|
A|------------------------------------|
E|------------------------------------|

end solo
e|----------15-------15-------15-------15-------15-------15-15-------|
b|-15-18b20----18b20----18b20----18b20----18b20----18b20----18b20~~--|
g|-------------------------------------------------------------------|
D|-------------------------------------------------------------------|
A|-------------------------------------------------------------------|
E|-------------------------------------------------------------------|


e|------------------------------------------------|
b|------------------------------------------------|
g|------------------------------------------------|
D|------------------------------------------------|
A|-----------------5-5-5-5-5-5-4-4-4-3-3-3-2-2-2--|
E|-3-3-3-3-3-3-3----------------------------------|


x4
e|--------------------------------------|
b|--------------------------------------|
g|--------------------------------------|
D|-------------2-------------2-------3--|
A|-------------2-------------2-------3--|
E|-0-0-0-0-0-0---0-0-0-0-0-0---0-0-0----|


e|------------------------------------------------|
b|------------------------------------------------|
g|------------------------------------------------|
D|------------------------------------------------|
A|-----------------5-5-5-5-5-5-4-4-4-3-3-3-2-2-2--|
E|-0-0-0-0-0-0-0----------------------------------|

last solo
e|----------------------------------------------------------------------|
b|-8-8-8-7----10-10-10-8----12-12-12-10--12p108-10--10p87-8--8p75-7--|
g|---------7-------------9----------------------------------------------|
D|----------------------------------------------------------------------|
A|----------------------------------------------------------------------|
E|----------------------------------------------------------------------|


e|----------|
b|-7p53-5--|
g|----------|
D|----------|
A|----------|
E|----------|


e|-------------------------------------------------------------------------|
b|-8-8-8-7----10-10-10-8----12-12-12-10--12p108-10--10p87-8--13p1210-12-|
g|---------7-------------9-------------------------------------------------|
D|-------------------------------------------------------------------------|
A|-------------------------------------------------------------------------|
E|-------------------------------------------------------------------------|


e|-------------|
b|-12p108-10--|
g|-------------|
D|-------------|
A|-------------|
E|-------------|


e|----------------------------------------------------------------------|
b|-8-8-8-7----10-10-10-8----12-12-12-10--12p108-10--10p87-8--8p75-7--|
g|---------7-------------9----------------------------------------------|
D|----------------------------------------------------------------------|
A|----------------------------------------------------------------------|
E|----------------------------------------------------------------------|


e|----------|
b|-7p53-5--|
g|----------|
D|----------|
A|----------|
E|----------|


e|----------------------------------------------------------------------|
b|-8-8-8-7----10-10-10-8----12-12-12-10--12p108-10--10p87-8--8p75-7--|
g|---------7-------------9----------------------------------------------|
D|----------------------------------------------------------------------|
A|----------------------------------------------------------------------|
E|----------------------------------------------------------------------|

end solo
e|----------------------------------------------|
b|-7p53-5--5p32-3--3p2p0-2--------------------|
g|----------------------------6p42-4--4p2p0-2--|
D|----------------------------------------------|
A|----------------------------------------------|
E|----------------------------------------------|


x4
e|--------------------------------------|
b|--------------------------------------|
g|--------------------------------------|
D|-------------2-------------2-------3--|
A|-------------2-------------2-------3--|
E|-0-0-0-0-0-0---0-0-0-0-0-0---0-0-0----|


e|-----------------------------|
b|-----------------------------|
g|-----------------------------|
D|-----------------------------|
A|-----5------5------5------5--|
E|-3-3-3--3-3-3--3-3-3--3-3-3--|


e|--------------------------------------|
b|--------------------------------------|
g|--------------------------------------|
D|-------------2-------------2-------3--|
A|-------------2-------------2-------3--|
E|-0-0-0-0-0-0---0-0-0-0-0-0---0-0-0----|


e|-----------------------------|
b|-----------------------------|
g|-----------------------------|
D|-----------------------------|
A|-----5------5------5------5--|
E|-3-3-3--3-3-3--3-3-3--3-3-3--|

x3
e|--------------------------------|
b|--------------------------------|
g|--------------------------------|
D|--------------------------------|
A|-------------2-2------3------3--|
E|-0-0-0-0-0-0-0-0--1-1-1--1-1-1--|


e|-----------------------------------------------|
b|-----------------------------------------------|
g|-----------------------------------------------|
D|-----------------------------------------------|
A|-------------2-2------5------5------5------5---|
E|-0-0-0-0-0-0-0-0--3-3-3--3-3-3--3-3-3--3-3-3---|


e|--------------------------------------|
b|--------------------------------------|
g|--------------------------------------|
D|-------------2-------------2-------3--|
A|-------------2-------------2-------3--|
E|-0-0-0-0-0-0---0-0-0-0-0-0---0-0-0----|

end of song
e|--------------------------------|
b|--------------------------------|
g|--------------------------------|
D|--------------------------------|
A|-2-2-2-2-2-2-2---2-2-2-2-2-2-2--|
E|-0-0-0-0-0-0-0---0-0-0-0-0-0-0--|


rhythm for main solo
e|--------------------------------------|
b|--------------------------------------|
g|--------------------------------------|
D|-------------2-------------2-------3--|
A|-------------2-------------2-------3--|
E|-0-0-0-0-0-0---0-0-0-0-0-0---0-0-0----|


e|--------------------------------------|
b|--------------------------------------|
g|--------------------------------------|
D|-------------2-------------2-------3--|
A|-------------2-------------2-------3--|
E|-0-0-0-0-0-0---0-0-0-0-0-0---0-0-0----|


e|--------------------------------------|
b|--------------------------------------|
g|--------------------------------------|
D|-------------2-------------2-------3--|
A|-------------2-------------2-------3--|
E|-0-0-0-0-0-0---0-0-0-0-0-0---0-0-0----|


e|--------------------------------------|
b|--------------------------------------|
g|--------------------------------------|
D|-------------2-------------2-------3--|
A|-------------2-------------2-------3--|
E|-0-0-0-0-0-0---0-0-0-0-0-0---0-0-0----|


e|--------------------------------------------|
b|--------------------------------------------|
g|--------------------------------------------|
D|--------------------------------------------|
A|--------------------------------------------|
E|-0-0-0-0-0-0-0--0-0-0-0-0-0-0--0-0-0-0-0-0--|


e|-------------------------------------|
b|-------------------------------------|
g|-------------------------------------|
D|-------------2--2--------------2--2--|
A|-------------2--2--------------2--2--|
E|-0-0-0-0-0-0-------0-0-0-0-0-0-------|


e|-------------------------------------|
b|-------------------------------------|
g|-------------------------------------|
D|-------------2--3--------------5--5--|
A|-------------2--3--------------5--5--|
E|-0-0-0-0-0-0-------3-3-3-3-3-3-3--3--|


e|-------------------------------------|
b|-------------------------------------|
g|-------------------------------------|
D|-------------2--2--------------2--2--|
A|-------------2--2--------------2--2--|
E|-0-0-0-0-0-0-------0-0-0-0-0-0-------|


e|-------------------------------------|
b|-------------------------------------|
g|-------------------------------------|
D|-------------2--3--------------5--5--|
A|-------------2--3--------------5--5--|
E|-0-0-0-0-0-0-------3-3-3-3-3-3-3--3--|


e|-------------------------------------|
b|-------------------------------------|
g|-------------------------------------|
D|-------------5--5--------------5--5--|
A|-------------5--5--------------5--5--|
E|-3-3-3-3-3-3-3--3--3-3-3-3-3-3-3--3--|


e|-------------------------------------|
b|-------------------------------------|
g|-------------------------------------|
D|-------------5--6--------------3--3--|
A|-------------5--6--------------3--3--|
E|-3-3-3-3-3-3-------1-1-1-1-1-1-1--1--|


e|-------------------------------------|
b|-------------------------------------|
g|-------------------------------------|
D|-------------5--5--------------5--5--|
A|-------------5--5--------------5--5--|
E|-3-3-3-3-3-3-3--3--3-3-3-3-3-3-3--3--|


e|-------------------------------------|
b|-------------------------------------|
g|-------------------------------------|
D|-------------5--6--------------3--3--|
A|-------------5--6--------------3--3--|
E|-3-3-3-3-3-3-------1-1-1-1-1-1-1--1--|


e|-----------------------------|
b|-----------------------------|
g|-----------------------------|
D|-----5------5------5------5--|
A|-----5------5------5------5--|
E|-3-3-3--3-3-3--3-3-3--3-3-3--|


e|-------------------------------------|
b|-------------------------------------|
g|-------------------------------------|
D|-------------3--3--------------3--3--|
A|-------------3--3--------------3--3--|
E|-1-1-1-1-1-1-1--1--1-1-1-1-1-1-1--1--|


e|-----------------------------|
b|-----------------------------|
g|-----------------------------|
D|-----5------5------5------5--|
A|-----5------5------5------5--|
E|-3-3-3--3-3-3--3-3-3--3-3-3--|


e|-------------------------------------|
b|-------------------------------------|
g|-------------------------------------|
D|-------------3--3--------------3--3--|
A|-------------3--3--------------3--3--|
E|-1-1-1-1-1-1-1--1--1-1-1-1-1-1-1--1--|



/ = slide up
= slide down
h = hammer on
p = pull off
b = bend
r = release
x = muted string
t = tap (with finger or pick)
~ = vibrato

 






Añadir comentario acerca de esta página:
Su nombre:
Su mensaje:


=> ¿Desea una página web gratis? Pues, haz clic aquí! <=