www.elewow.es.tl asi como todas las imágenes, videos y productos referentes/propios a dicha página contienen derechos de autor (Copyrigh) © de acuerdo con la ley vigente de 1996 renovada en 2011
 

Hasta que el cuerpo aguante


Solo de guitarra electrica - Hasta que el cuerpo aguante
E|--------------------------------|-------------------------------------------
B|--10--------------------10b12~--|-------------------------------------------
G|-----12-11-9-12-11-9-7----------|--9b119p7---7~----------------------7---7--
D|--------------------------------|----------9---9--------------7--9----9----
A|--------------------------------|------------------------5-7-9--------------
E|--------------------------------|------------------5-6-7--------------------
P.M ...........

----------------------------------------|--10p7---12p7----|--10~-7----7h10p7-----
-------10---------------10----10--------|------10------10-|--------10--------10--
--9b11----9b11~9p7---9~-9b11--119p7-----|-----------------|----------------------
-------------------9----------------9~--|--------*--------|----------------------
----------------------------------------|-----------------|----------------------
----------------------------------------|----Repetir 3x---|----------------------


--7-------------------------------------|---------------------------------|---
----10p7h10p7----7-----------------7~---|---------------------------------|---
--------------10---10p9h10p9p7h9p7------|--9b119p7---7--------------------|---
----------------------------------------|----------9---9-7----------------|---
----------------------------------------|------------------9-8-7----<7>~--|---
----------------------------------------|------------------------10-------|---


----------------------------------------| h – Hammer on T - Tapping
----------------------------------------| p – Pull-off () – Ghost note
------------7-9-<9b11------(11)>9p7-----| ~ - vibrato
--------7-9-------------------------9--| - Slide down
--5-7-9---------------------------------| P.M – Palm Mute
----------------------------------------| <> - Artificial Harmonic


El cuarto riff, es una improvisación mia de esa parte del solo en escala
de blues, es la unica parte del solo que no pude sacar, puedes hacer la
tuya tambien haciendo combinaciones de hammers y pull-offs entre cuerdas.

Escala de Blues
E|--------------------------5-8--|
B|----------------------5-8------|
G|----------------5-7-8----------|
D|------------5-7----------------|
A|------5-6-7--------------------|
E|--5-8--------------------------|


El riff que tiene el asterisco puedes hacerlo como tapping tambien
E|--10-7-5--12-7-5--10-7-5--12-7-5--10-7-5--12-7-5--|
B|--------------------------------------------------|
G|--------------------------------------------------|
D|--------------------------------------------------|
A|--------------------------------------------------|
E|--------------------------------------------------|



El atapasueños




introduccion

-------------------------------------------------
-------------------------------------------------
-------------------------------------------------
-------------------------------------10----------
-7---7-7-7-7-5---5-5-5-5-7---7-7-7-7-8-----10----
-5---5-5-5-5-3---3-3-3-3-5---5-5-5-5-------8-----
. . . . . . . . . . . . P.M.

antes del verso
------------------------------------------
------------------------------------------
------------------------------------------
------------------------------------------
-7------------------------------7---------
-5xxxxxxxxxxxxxxxxx-3-5-7-8-75-5xxxxx-/x- <==[raspar cuerda]

verso
-------------------------------------------------
-------------------------------------------------
-------------------------------------------------
-------------------------------------------------
-------7-----------5-----------5-----------7-----
-5---5-5---5-3---3-3-----3---3-3---3-5---5-5-----
. . . . . . . . . . P.M.
dichoso es el que ve que el cielo y horizonte
condenados estan a tenerse que entender
juicioso es el que cree que no existe partida
en la que no haya que arriesgar para vencer

coro
-------------------------------------------------
-------------------------------------------------
-5---------------5-----------2-------------------
-5---5---5---7---5---5---5-2-2-------------------
-3---5---5---7---3---5---5-2-0-------------------
-----3---3---5-------3---3-0---------------------
la felicidad no consiste en todo tener
sino en saber sacar lo bueno que hoy te da
y al ver salir el sol un aguila un halcon
que una legion de

-introduccion

-verso 2
yo te mostrare que todo en esta vida
lo puedes tener si en ti logras creer
y te enseñare a vencer a tu enemigo
que no son los demas, *eres tu, eres tu [G|-4-5-----5-- x2]

-coro 2
hay que fracasar y a veces fondo tocar
para ver la luz y esta vida apreciar
la felicidad no consiste en todo tener
sino en saber sacar lo bueno que hoy te da

-parte lenta: Am G G Am

cuando empieza a cantar
------------------------------|-------------------
------------------------------|-------------------
------------------------------|-------------------
------------------------------|---5-4-------------
-7-7-7-7----------------------|-7-3-2-7-5-7-7-----
-5-5-5-5----------------------|-5-----5-3-5-5-----

verso especial
----------------------------------------------------------
----------------------------------------------------------
-5---------------------------5----------------------------
-5-------5-------------------5-------5--------------------
-3-------5-------7-----5-----3-------5-------7---3---7----
---------3-------5xxxx-3xxxx---------3-------5xx-5xx-5xxx-
(y algun dia se cumpliran) todos tus sueños se haran realidad
(y mañana amanecera) el atrapasueños yo soy
(y algun dia se cumpliran) atrapasueños de jaula y dolor
(y mañana amanecera) el atrapasueños yo soy

-introduccion

-solo (segunda guitarra repite verso)
-------------------------------------------------------------------------
----------------------8--------------------------------------------------
-----5-7--7/9---7-9b-----7h9~--------------------------------------------
-5-7-----------------------------9-10-7---------7------------------------
----------------------------------------10-7-10---10-7-10----------------
----------------------------------------------------------10-83---0--/7-

-------------------------------------------------------------------------
----------------------------------10---10--10b12---r10-----/15~---13-12--
-5--7--<7/9>-<7>-----------7-9.------------------------------------------
-------------------10p7-10-----------------------------------------------
-------------------------------------------------------------------------
-------------------------------------------------------------------------

----------------10/-/17-15-17-15-17-15-17--------------------------------
-13-12-10-12-13----------------------------------------------------------
-------------------------------------------------------------------------
-------------------------------------------------------------------------
-------------------------------------------------------------------------
-------------------------------------------------------------------------

-interludio de flauta: Am Dm G Am x4

-------------------------------------------------------------------------
-------------------------------------------------------------------------
-------------------------------------------------------------------------
-------------7-----7-----------------------------------------------------
-7-----7-----5-----5-----5-----5-----7-----7-----------------------------
-5-----5-----------------3-----3-----5-----5-----------------------------

-verso especial

-introduccion

fin

-------------------------------------------------------------------------
-------------------------------------------------------------------------
-------------------------------------------------------------------------
------------------------10-----------------------------------------------
-7-------5-------7-------8--10---7x-------------------------------------
-5-------3-------5-----------8---5x-------------------------------------



[ _ [ otros instrumentos, transcritos para guitarra ] _ ]

violin principal
-------------10-12-----------7--8-10-------------10-12-13-12-10----------
-10----10-13--------8-----8----------10----10-13----------------12-13-12-
-------------------------------------------------------------------------
-------------------------------------------------------------------------
-------------------------------------------------------------------------
-------------------------------------------------------------------------

-------------10-12-----------7--8-10-------------10-12/17-15-13-12-------
-10----10-13--------8-----8----------10----10-13-------------------15-13-
-------------------------------------------------------------------------
-------------------------------------------------------------------------
-------------------------------------------------------------------------
-------------------------------------------------------------------------

violin en primera parte lenta [1:24]
------------5------------------------------5-----------------------------
--5---6-8-----5-----5------------5---6-8-----5-------5~------------------
------------------7-----7-5----------------------7-----------------------
-------------------------------------------------------------------------
-------------------------------------------------------------------------
-------------------------------------------------------------------------

------------5-7---8---7tr---5----8--/12---10-----------------------------
--5---6-8--------------------------------------13---12-------13-13-------
-------------------------------------------------------------------------
-------------------------------------------------------------------------
-------------------------------------------------------------------------
-------------------------------------------------------------------------

flauta [2:41]
----------12----12------------10----10-----10--10-10-10-12-10------------
-10-12-13------------10-12-13----------------------------------13--12-10-
-------------------------------------------------------------------------
-------------------------------------------------------------------------
-------------------------------------------------------------------------
-------------------------------------------------------------------------

----------12----12------------10----10-----10--10-10-10------------------
-10-12-13------------10-12-13---------------------------13-12-10---10----
-------------------------------------------------------------------------
-------------------------------------------------------------------------
-------------------------------------------------------------------------
-------------------------------------------------------------------------

violin [3:00]
----------12--12------------10--10------------10--10--12--10-------------
-10-12-13---------10-12-13----------10-12-13-----------------13-12-13----
-------------------------------------------------------------------------
-------------------------------------------------------------------------
-------------------------------------------------------------------------
-------------------------------------------------------------------------

----------12--12------------10--10------------10-12-10----------15-13-12-
-10-12-13---------10-12-13----------10-12-13-----------13-12-13----------
-------------------------------------------------------------------------
-------------------------------------------------------------------------
-------------------------------------------------------------------------
-------------------------------------------------------------------------

------------------
-15-13-12-........
------------------
------------------
------------------
------------------


El bálsamo de fierabrás

esto es pal.mute xesto ya saben
~~vibrar x

e|-°°°°°°°°°------1 -°°°°°°°----------------------------------------------
B|----------------1 ------------------------------------------------------
G|¬¬---------------)-----------------------------------------------------
D|-1---------------)-----------------------------------------------------
A|--4-3-1-3-4------ ---------3--------------------------------------------
E|-----------4p1--- --1-3-4--1--------------------------------------------
4 veces (verso) cuando a tu. Y el corazo

e|------------------------------------------------------------------------
B|-------4-4-------4-4-----------4-4--------4x----------------------------
G|-------3-3-------3-3-----------3-3--------3x----------------------------
D|-------1-1-------1-1-----------1-1--------1x--3-----------------5-------
A|----------------------------------------------1-----------------3-------
E|-1-4p1-----1-4p1---------1-4p1------1-4p1-------------------------------
on si tu. El peso

e|------------------------------------------------------------------------
B|-6-----------------------------------6-----------------------------6--6-
G|-5-----------------------------------5--------------------°°°°°----5--5-
D|-3-5-3----s.h------5-----------------3--5-3---------------555555---3--3-
A|---3-1--1-1-3~~----3-5-3----------------3-1--1-1-3~~-1-33-333333--------
E|---------4-----------3-1--1-3~~1--------------4-------------------------

e|---------------1---------------------------------------------------------
B|---------------1---------------------------------------------------------
G|--------------------------------5----------------------------------------
D|-1----------------1-------------3--1-------------------------------------
A|--4-3-1-3-4--------4-3-1-3-4--------4-3-1-3-4----------------------------
E|-----------4p1--------------4p1--------------4p1-------------------------

Cuando tu cabeza
sientas latir
más que el corazón
Y tus piernas
no reciban estímulos
ni información
Si tus espaldas
no pueden soportar
el peso
De tus hombros al caminar
Sé de un remedio
ue un moro me dio.
Té quita el tedio y, a veces,
también el dolor.
O.K.! Va guay!.
Tómalo es medicina natural
O.K.! Va guay!
Contra el mal humor...
Bálsamo de Fierabrás.
En la noche de los tiempos
se pierde a su creación.
Toda la tierra,
lo sacia la lluvia
y lo seca el sol.
En el lejano Oriente
es tradición.
Y aquí los necios
lo llaman corrupción.
Es un remedio
que un moro me dio.


y con solo esto sacan toda la cancion
facil cencillo y mas q nada correcto
de viejo juglar.
y esperen mas gilipollas
por q yo y mi talento apenas empieza
adios

El hijo del blues




Intro violín

G5 G5 x4
|-15-17-15-15-19-15-15-17-15-15-19-15-15-17-15-15-19-15-15------15-15-
|-----------------------------------------------------------17--------
|---------------------------------------------------------------------
|---------------------------------------------------------------------
|---------------------------------------------------------------------
|---------------------------------------------------------------------

Después la otra parte del violín

G5 G5 E5 D5
|-------------------------------------------------------12-12----------
|-----------12-12------------------------------12-12-15-------15-15----
|--12-12-14-------14-12-12------------12-12-14-------------------------
|--------------------------14-12-12------------------------------------
|----------------------------------------------------------------------
|----------------------------------------------------------------------

E5 B5 C5 G5 E5 B5 A5 G5 x2
|--12-12------------------------------------------------12-------------
|--------15-12-12-15-13-12----------------------------12---15-12-------
|--------------------------14-12--------------12-12-14-----------14-12-
|--------------------------------14-12--12-14--------------------------
|----------------------------------------------------------------------
|----------------------------------------------------------------------

Riff1 rockero

|----------------------------------------------------------------------
|----------------------------------------------------------------------
|----------------------------------------------------------------------
|----------------------------------------------------------------------
|--0-0-0-0-3p0--0--0-0-0-0-3p0--0--0-0-0-0-3p0-0---se desliza la púa de
|--------------3---------------3--------------3----por la cuerda-------

Riff2 verso x5 (se toca una vez sin letra)

|-----------------------------------------------------------------------
|-----------------------------------------------------------------------
|-2-2-----------2-2------------2-2-----------2-2------------------------
|-2-2-----------2-2------------2-2-----------2-2------------------------
|-0-0--0-0-0-0-----0-0-0-0-0-0------0-0-0-0--0-0------------------------
|-----------------------------------------------------------------------
Desde el día en que nací tuve una cosa muy clara
Que tendría que pagar por ser una especie rara
Yo soy el hijo bastardo del Blues con una mujer
que movía sus caderas hasta hacerte enloquecer

Coro:
Ultimo verso coro
|----------------------------------------------------------------------
|----------------------------------------------------------------------
|------5---------4------2-----------2-2----------x3-5-4----------------
|------5---------4------2-----------2-2-------------3-4----------------
|------3---------2------0-0-0-0-0-0-----0-0-0-0-0---3-2----------------
|---------------------------------------------------------0-0-0-0-0-0-0
Mi viejo me enseño a mover los pies
A tocar con sentimiento, puse rabia al nacer
Me maldicen los babosos por tocar mi guitarra
Y los modernos de turno se disfrazan con mi piel

Riff verso x5
“He poseido a mucha gente…

Coro:

Mi nombre es Rock n Roll!!
Después la guitarra hace esto:

Ritmo que acompaña al violín
|---------------------------------------------------------------------
|---------------------------------------------------------------------
|---------------------------------------------------------------------
|------2-----x4-----2-----x4------5-----x2------2-----x2-------7------
|--4-2---4-2----4-2---4-2-----7-4---7-4-----4-2---4-2------9-6--9-6---
|---------------------------------------------------------------------

|---------------------------------------------------------------------
|---------------------------------------------------------------------
|---------------------------------------------------------------------
|------5----------2-----x2-------2-----x4------5-----x2-----2----x2---
|--7-4---7-4--4-2---4-2------4-2---4-2-----7-4---7-4----4-2--4-2------
|---------------------------------------------------------------------

|--------------16-14v-----------14-12v--19-17-16----17-16-------------
|------------------------------------------------19-------19-17-19^-17
|---------------------------------------------------------------------
|------7-----------------5--------------------------------------------
|--9-6---9-6---------7-4---7-4----------------------------------------
|---------------------------------------------------------------------

Mientras el violín es así:

|---------------------------------------------------------------------
|-------5-5—x4-----8-8-x2------5-5—x2-------10-10------8-8-----5-5—x2--
|---4h6--------6h9---------4h6---------8h11--------6h9-----4h6--------
|----------------------------------------------------------------------
|----------------------------------------------------------------------
|----------------------------------------------------------------------

|----------------------------------------------------------------------
|------5-5-x4-----8-8-x2------5-5-x2------10-10-----8-8----------------
|--4h6--------6h9---------4h6--------8h11-------6h9--------------------
|-----------------------------------------------------------------7-8-9
|----------------------------------------------------------------------
|----------------------------------------------------------------------

Riff1 rockero

*Solo de guitarra (todavía no lo sako xD)

Ritmo de fondo del solo: riff verso x4 y coro

Riff verso x4
“El día que tu naciste nacieron las coliflores…

Coro:

Luego viene violín: (Una vez solo el violín luego entra ritmo de fondo)

D5 D5 E5 A5 D5
|-----------14-12----------14-12---------14-12----12--------------14-12
|--15-14-15-------15-14-15-------15-14-15------15---------15-14-15-----
|----------------------------------------------------14----------------
|----------------------------------------------------------------------
|----------------------------------------------------------------------
|----------------------------------------------------------------------

E5 A5 D5 A5
|-12-14-15-17--17-19-17-15----------------14-17-14-14-19-14-14-17-14-14
|--------------------------19-17-15---x4-------------------------------
|----------------------------------------------------------------------
|----------------------------------------------------------------------
|----------------------------------------------------------------------
|----------------------------------------------------------------------

A5 G5 A5
|-19-14-14-17-14-14-19-14-14-17-17--14-17-14-14-19-14-14-17-14-14---17-
|----------------------------------------------------------------------
|----------------------------------------------------------------------
|----------------------------------------------------------------------
|----------------------------------------------------------------------
|----------------------------------------------------------------------

|-19-17-15-------------------
|----------19-17-15----x2----
|----------------------------
|----------------------------
|----------------------------
|----------------------------


D5 D5 E5 A5 D5
|-----------14-12----------14-12---------14-12----12--------------14-12
|--15-14-15-------15-14-15-------15-14-15------15---------15-14-15-----
|----------------------------------------------------14----------------
|----------------------------------------------------------------------
|----------------------------------------------------------------------
|----------------------------------------------------------------------


E5 A5 D5
|-12-14-15-17--17-19-17-15----------------
|--------------------------19-17-15---x2--
|-----------------------------------------
|-----------------------------------------
|-----------------------------------------
|-----------------------------------------

Termina con riff1 rockero

|---------------------------------------------------------------------|
|---------------------------------------------------------------------|
|---------------------------------------------------------------------|
|--------------------------------------------------7------------------|
|--0-0-0-0-3p0--0--0-0-0-0-3p0--0--0-0-0-0-3p0-0---7------------------|
|--------------3---------------3--------------3----5------------------|


Nota: E5 es |------|
|------|
|--9---|
|--9---|
|--7---|
|------|





Comentarios hacia esta página:
Comentado por:07-10-2010, 18:41 (UTC)
elewow
elewow
Offline

SI QUIEREN ALGUNA CANCIÓN DEJEN COMENTARIO EN LA HOME



Añadir comentario acerca de esta página:
Su nombre:
Su mensaje:


=> ¿Desea una página web gratis? Pues, haz clic aquí! <=